Cevapsız Sorular (Intro Tab)

maNga

Ekleyen rabosenpai. 1455 defa görüntülendi. 3 defa favorilere eklendi.

Transpoze:   Arıza:   Kolon:   Font: 

e|-------0-----------| x2
B|--4-----4-4-----4--|
G|----6----6-----6-6-|
D|-----6-------------|
A|-------------0-----|
E|-------------------|

e|-------0----------0----------0---------0----|
B|--4-----4-4-----4--4-4-----4--4-4----4--0---|
G|----6----6-----6-6--6-----6-6--6----6-6--4--|
D|-----6------------------------------------6-|
A|-------------0-----------0---------0--------|
E|--------------------------------------------|