Bohemian Rhapsody (Solo Tab)

Queen

Ekleyen SerkanBilgin. 892 defa görüntülendi. 2 defa düzeltildi. Son düzelten hasimshnc.

Transpoze:   Arıza:   Kolon:   Font: 

[2:40]

e|-----------------------------------------------------------------------|
B|---------------11--8---11b13----13--15-16-13--15-16-16b18---13-18------|
G|----10b12p10p8---------------------------------------------------------|
D|--8--------------------------------------------------------------------|
A|-----------------------------------------------------------------------|
E|-----------------------------------------------------------------------|

e|-15-16-18-18b20----18-16-15-16-15h16p15--------15----------------------|
B|--------------------------------------------18----18-16-15h16p15h16p15-|
G|-----------------------------------------------------------------------|
D|-----------------------------------------------------------------------|
A|-----------------------------------------------------------------------|
E|-----------------------------------------------------------------------|

e|-----------------------------------------------------15-16-18v---------|
B|-------15----------------------------------15-16-18--------------------|
G|---17----17-15v15-------------------15-17------------------------------|
D|-----------------------------------------------------------------------|
A|-----------------------------------------------------------------------|
E|-----------------------------------------------------------------------|





e|--------------------15-16-18-18b20-------------------------------------|
B|---------15-16-18--------------------------------------15-16-----------|
G|--15-17------------------------------------------------------17--------|
D|-----------------------------------------------------------------------|
A|-----------------------------------------------------------------------|
E|-----------------------------------------------------------------------|

e|-----------------------------------------13----------------------------|
B|--15-16----15-16-16b18----------------------------14-14-14-14----------|
G|--------17-------------------10-12-13----------------------------------|
D|-----------------------------------------------------------------------|
A|-----------------------------------------------------------------------|
E|-----------------------------------------------------------------------|

e|-----------------------------------------------------------------------|
B|-----------------------------------------------------------------------|
G|---------------6---7p6-------------------------------------------------|
D|-----------------------7-----------------------------------------------|
A|-----------------------------------------------------------------------|
E|-----------------------------------------------------------------------|

b  Bend
x  Dead note
p  Pull-off
h  Hammer-on
\  Slide down
/  Slide up