Tehlikeli İkilem (Tab)

Dolu Kadehi Ters Tut

Ekleyen effretto. 1070 defa görüntülendi. 1 defa favorilere eklendi. 1 defa düzeltildi. Son düzelten effretto.

Transpoze:   Arıza:   Kolon:   Font: 

(0.00)
e--------------------  e--------------------
B--------------------  B--------------------
G--------------------  G--------------------
D-------0-2-0--------  D-------0-2-0--------
A-2-0-2------2-0-----  A-2-0-2------2-0--0--
E---------------3-0--  E----------------3---

(0.20)
e-----------------  e----------------------
B-----------------  B----------------------
G-----------------  G----------------------
D-x-x-5/7-7-x-5-7-  D----------------------
A-x-x-5/7-7-x-5-7-  A--------------2-------
E-x-x-3/5-5-x-3-5-  E-5-3-5-3-5-3-5-5-3-0--

e------------------  e----------------------
B------------------  B----------------------
G------------------  G----------------------
D-x-x-5/7-7-x-5-7-8  D----------------------
A-x-x-5/7-7-x-5-7-8  A---------------2------
E-x-x-3/5-5-x-3-5-6  E-5-3-5-3-5-3-5--5-3-0-

e--------------------
B--------------------
G--------------------
D-------0-2-0--------
A-2-0-2------2-0-----
E---------------3-0--

(0.32)
e------------------
B------------------
G-------7-9-7------
D-9-7-9-------9-7--
A------------------
E------------------

e-----------------  e----------------------
B-----------------  B----------------------
G-----------------  G----------------------
D-x-x-5/7-7-x-5-7-  D----------------------
A-x-x-5/7-7-x-5-7-  A--------------2-------
E-x-x-3/5-5-x-3-5-  E-5-3-5-3-5-3-5-5-3-0--

e------------------  e----------------------
B------------------  B----------------------
G------------------  G----------------------
D-x-x-5/7-7-x-5-7-8  D----------------------
A-x-x-5/7-7-x-5-7-8  A---------------2------
E-x-x-3/5-5-x-3-5-6  E-5-3-5-3-5-3-5--5-3-0-

(0.52)
e---------------------
B---------------------
G---------------------
D-------0-2-0------2--
A-2-0-2-------2-0-----
E-----------------3---

e--------------------
B--------------------
G-------7-9-7--------
D-9-7-9------9-7-5-7-
A--------------------
E--------------------

e---------------------
B---------------------
G-------7-9-7---------
D-9-7-9-------9-7-5---
A-------------------7-
E---------------------

e---------------------15-17b19-15---
B---------15-17-15-17-------------17-
G-16-14-16---------------------------
D------------------------------------
A------------------------------------
E------------------------------------

(1.00)
e------------------
B------------------
G-------7-9-7------
D-9-7-9-------9-7--
A------------------
E------------------

e-----------------  e----------------------
B-----------------  B----------------------
G-----------------  G----------------------
D-x-x-5/7-7-x-5-7-  D----------------------
A-x-x-5/7-7-x-5-7-  A--------------2-------
E-x-x-3/5-5-x-3-5-  E-5-3-5-3-5-3-5-5-3-0--

e------------------  e-----------------------
B------------------  B-----------------------
G------------------  G-----------------------
D-x-x-5/7-7-x-5-7-8  D----------------------2
A-x-x-5/7-7-x-5-7-8  A---------------2------0
E-x-x-3/5-5-x-3-5-6  E-5-3-5-3-5-3-5--5-3-0-0

(1.34)
e--------------------- x3
B---------------------
G---------------------
D-5-7-7-5-7-7-5-7-----
A---------------------
E---------------------

e-------------------
B-------------------
G--------5-5-5-5----
D-5-7-7-7-----------
A-------------------
E-------------------

e--------------------- x3
B---------------------
G---------------------
D---------------------
A-5-7-7-5-7-7-5-7-----
E---------------------

e-------------------
B-------------------
G-------------------
D--------5-5-5-5----
A-5-7-7-7-----------
E-------------------

(2.22)
e--------------------- x3
B---------------------
G---------------------
D-5-7-7-5-7-7-5-7-----
A---------------------
E---------------------

e-------------------
B-------------------
G--------5-5-5-5----
D-5-7-7-7-----------
A-------------------
E-------------------

e---------------------
B---------------------
G-9-9-9-9-9-9-9-9-9-9-
D---------------------
A---------------------
E---------------------

e--------------------------------
B-10-----8-----------------------
G---7-7-7--5-5-5-9-------7-------
D------------------7-7-7---5-5-5-
A--------------------------------
E--------------------------------

(2.31)
e-----------------  e----------------------
B-----------------  B----------------------
G-----------------  G----------------------
D-x-x-5/7-7-x-5-7-  D----------------------
A-x-x-5/7-7-x-5-7-  A--------------2-------
E-x-x-3/5-5-x-3-5-  E-5-3-5-3-5-3-5-5-3-0--

e------------------  e----------------------
B------------------  B----------------------
G------------------  G----------------------
D-x-x-5/7-7-x-5-7-8  D----------------------
A-x-x-5/7-7-x-5-7-8  A---------------2------
E-x-x-3/5-5-x-3-5-6  E-5-3-5-3-5-3-5--5-3-0-

(2.50)
e----------------- x2
B-----------------
G-------7-9-7-----
D-9-7-9------9-7--
A-----------------
E-----------------

e-----------------------------------
B-------------8-10b12-10-8-10-8-----
G-------7-9-7-------------------9-7-
D-9-7-9-----------------------------
A-----------------------------------
E-----------------------------------

e----------------- x7
B-----------------
G-------7-9-7-----
D-9-7-9------9-7--
A-----------------
E-----------------

e----------------
B--------------8-
G-------7-9-7-9--
D-9-7-9----------
A----------------
E----------------

(3.05)
e----------------- x3
B-----------------
G-------7-9-7-----
D-9-7-9------9-7--
A-----------------
E-----------------

e----------------
B--------------8-
G-------7-9-7-9--
D-9-7-9----------
A----------------
E----------------

(3.20)
e----------------- x2
B-----------------
G-------7-9-7-----
D-9-7-9------9-7--
A-----------------
E-----------------

e-----------------------------------
B-------------8-10b12-10-8-10-8-----
G-------7-9-7-------------------9-7-
D-9-7-9-----------------------------
A-----------------------------------
E-----------------------------------

e-----------------  e----------------------
B-----------------  B----------------------
G-----------------  G----------------------
D-x-x-5/7-7-x-5-7-  D----------------------
A-x-x-5/7-7-x-5-7-  A--------------2-------
E-x-x-3/5-5-x-3-5-  E-5-3-5-3-5-3-5-5-3-0--

e------------------  e-----------------------
B------------------  B-----------------------
G------------------  G-----------------------
D-x-x-5/7-7-x-5-7-8  D----------------------2
A-x-x-5/7-7-x-5-7-8  A---------------2------0
E-x-x-3/5-5-x-3-5-6  E-5-3-5-3-5-3-5--5-3-0-0

e--------------------
B--------------------
G--------------------
D-------0-2-0--------
A-2-0-2------2-0-----
E---------------3-0--